ISO-10303-21;
HEADER;
FILE_DESCRIPTION (( 'STEP AP203' ),
    '1' );
FILE_NAME ('AL-HD14-5.1x10-6 Äèñòàíöèîííàÿ âòóëêà 5.1x10-6.STEP',
    '2024-12-12T13:49:43',
    ( '' ),
    ( '' ),
    'SwSTEP 2.0',
    'SolidWorks 2021',
    '' );
FILE_SCHEMA (( 'CONFIG_CONTROL_DESIGN' ));
ENDSEC;

DATA;
#1 = APPROVAL_ROLE ( '' ) ;
#2 = ORIENTED_EDGE ( 'NONE', *, *, #3, .T. ) ;
#3 = EDGE_CURVE ( 'NONE', #132, #130, #162, .T. ) ;
#4 = EDGE_LOOP ( 'NONE', ( #24, #97 ) ) ;
#5 = AXIS2_PLACEMENT_3D ( 'NONE', #220, #86, #203 ) ;
#6 = ORIENTED_EDGE ( 'NONE', *, *, #213, .T. ) ;
#7 = ORIENTED_EDGE ( 'NONE', *, *, #199, .T. ) ;
#8 = VERTEX_POINT ( 'NONE', #105 ) ;
#9 = CARTESIAN_POINT ( 'NONE',  ( 0.000000000000000000, 0.000000000000000000, 6.000000000000000000 ) ) ;
#10 = CC_DESIGN_APPROVAL ( #118, ( #164 ) ) ;
#11 = CYLINDRICAL_SURFACE ( 'NONE', #45, 2.549999999999999822 ) ;
#12 = CIRCLE ( 'NONE', #237, 5.000000000000000000 ) ;
#13 = CALENDAR_DATE ( 2024, 12, 12 ) ;
#14 = ADVANCED_FACE ( 'NONE', ( #91, #15 ), #92, .F. ) ;
#15 = FACE_BOUND ( 'NONE', #46, .T. ) ;
#16 = LINE ( 'NONE', #74, #154 ) ;
#17 = CARTESIAN_POINT ( 'NONE',  ( 0.000000000000000000, 0.000000000000000000, 0.000000000000000000 ) ) ;
#18 = CC_DESIGN_PERSON_AND_ORGANIZATION_ASSIGNMENT ( #206, #69, ( #194 ) ) ;
#19 = CARTESIAN_POINT ( 'NONE',  ( 0.000000000000000000, 0.000000000000000000, 6.000000000000000000 ) ) ;
#20 = CALENDAR_DATE ( 2024, 12, 12 ) ;
#21 = APPROVAL_ROLE ( '' ) ;
#22 = CALENDAR_DATE ( 2024, 12, 12 ) ;
#23 = LOCAL_TIME ( 16, 49, 43.00000000000000000, #188 ) ;
#24 = ORIENTED_EDGE ( 'NONE', *, *, #170, .F. ) ;
#25 = AXIS2_PLACEMENT_3D ( 'NONE', #122, #120, #160 ) ;
#26 = ORIENTED_EDGE ( 'NONE', *, *, #77, .T. ) ;
#27 = LINE ( 'NONE', #85, #129 ) ;
#28 = CARTESIAN_POINT ( 'NONE',  ( 0.000000000000000000, 0.000000000000000000, 0.000000000000000000 ) ) ;
#29 = EDGE_CURVE ( 'NONE', #174, #42, #39, .T. ) ;
#30 = MECHANICAL_CONTEXT ( 'NONE', #63, 'mechanical' ) ;
#31 = DIRECTION ( 'NONE',  ( 0.000000000000000000, 0.000000000000000000, 1.000000000000000000 ) ) ;
#32 = DIRECTION ( 'NONE',  ( 1.000000000000000000, 0.000000000000000000, 0.000000000000000000 ) ) ;
#33 = LINE ( 'NONE', #110, #78 ) ;
#34 = CC_DESIGN_PERSON_AND_ORGANIZATION_ASSIGNMENT ( #228, #112, ( #164 ) ) ;
#35 = DATE_AND_TIME ( #20, #230 ) ;
#36 = DIRECTION ( 'NONE',  ( -0.000000000000000000, -0.000000000000000000, -1.000000000000000000 ) ) ;
#37 = DATE_TIME_ROLE ( 'classification_date' ) ;
#38 = APPROVAL_STATUS ( 'not_yet_approved' ) ;
#39 = CIRCLE ( 'NONE', #5, 2.549999999999999822 ) ;
#40 = ADVANCED_FACE ( 'NONE', ( #180 ), #51, .T. ) ;
#41 = DESIGN_CONTEXT ( 'detailed design', #102, 'design' ) ;
#42 = VERTEX_POINT ( 'NONE', #167 ) ;
#43 = PRODUCT_DEFINITION_FORMATION_WITH_SPECIFIED_SOURCE ( 'ANY', '', #56, .NOT_KNOWN. ) ;
#44 = ORIENTED_EDGE ( 'NONE', *, *, #131, .F. ) ;
#45 = AXIS2_PLACEMENT_3D ( 'NONE', #9, #70, #158 ) ;
#46 = EDGE_LOOP ( 'NONE', ( #239, #103 ) ) ;
#47 = DIRECTION ( 'NONE',  ( 1.000000000000000000, 0.000000000000000000, 0.000000000000000000 ) ) ;
#48 = PRODUCT_DEFINITION_SHAPE ( 'NONE', 'NONE',  #164 ) ;
#49 = DIRECTION ( 'NONE',  ( -1.000000000000000000, 0.000000000000000000, 0.000000000000000000 ) ) ;
#50 = DIRECTION ( 'NONE',  ( 0.000000000000000000, 0.000000000000000000, 1.000000000000000000 ) ) ;
#51 = CYLINDRICAL_SURFACE ( 'NONE', #80, 5.000000000000000000 ) ;
#52 = ORGANIZATION ( 'UNSPECIFIED', 'UNSPECIFIED', '' ) ;
#53 = CARTESIAN_POINT ( 'NONE',  ( 5.000000000000000000, 6.123233995736766282E-16, 0.000000000000000000 ) ) ;
#54 = DATE_AND_TIME ( #182, #76 ) ;
#55 = CARTESIAN_POINT ( 'NONE',  ( -2.549999999999999822, 0.000000000000000000, 6.000000000000000000 ) ) ;
#56 = PRODUCT ( 'AL-HD14-5.1x10-6 Äèñòàíöèîííàÿ âòóëêà 5.1x10-6', 'AL-HD14-5.1x10-6 Äèñòàíöèîííàÿ âòóëêà 5.1x10-6', '', ( #30 ) ) ;
#57 = PERSON_AND_ORGANIZATION ( #169, #52 ) ;
#58 = CIRCLE ( 'NONE', #196, 5.000000000000000000 ) ;
#59 = EDGE_CURVE ( 'NONE', #195, #117, #27, .T. ) ;
#60 = APPROVAL_DATE_TIME ( #150, #79 ) ;
#61 = ORIENTED_EDGE ( 'NONE', *, *, #234, .F. ) ;
#62 = DIRECTION ( 'NONE',  ( 1.000000000000000000, 0.000000000000000000, 0.000000000000000000 ) ) ;
#63 = APPLICATION_CONTEXT ( 'configuration controlled 3d designs of mechanical parts and assemblies' ) ;
#64 = DIRECTION ( 'NONE',  ( 0.000000000000000000, 0.000000000000000000, 1.000000000000000000 ) ) ;
#65 = MANIFOLD_SOLID_BREP ( 'Áîáûøêà-Âûòÿíóòü1', #152 ) ;
#66 = CARTESIAN_POINT ( 'NONE',  ( 5.000000000000000000, 6.123233995736766282E-16, 6.000000000000000000 ) ) ;
#67 = DIRECTION ( 'NONE',  ( 0.000000000000000000, 0.000000000000000000, 1.000000000000000000 ) ) ;
#68 = AXIS2_PLACEMENT_3D ( 'NONE', #247, #31, #47 ) ;
#69 = PERSON_AND_ORGANIZATION_ROLE ( 'classification_officer' ) ;
#70 = DIRECTION ( 'NONE',  ( -0.000000000000000000, -0.000000000000000000, -1.000000000000000000 ) ) ;
#71 = COORDINATED_UNIVERSAL_TIME_OFFSET ( 3, 0, .AHEAD. ) ;
#72 = DIRECTION ( 'NONE',  ( 1.000000000000000000, 0.000000000000000000, -0.000000000000000000 ) ) ;
#73 = DIRECTION ( 'NONE',  ( 0.000000000000000000, 0.000000000000000000, 1.000000000000000000 ) ) ;
#74 = CARTESIAN_POINT ( 'NONE',  ( 2.549999999999999822, 3.122849337825750419E-16, 6.000000000000000000 ) ) ;
#75 = PERSON_AND_ORGANIZATION ( #169, #52 ) ;
#76 = LOCAL_TIME ( 16, 49, 43.00000000000000000, #125 ) ;
#77 = EDGE_CURVE ( 'NONE', #240, #195, #113, .T. ) ;
#78 = VECTOR ( 'NONE', #185, 1000.000000000000000 ) ;
#79 = APPROVAL ( #212, 'UNSPECIFIED' ) ;
#80 = AXIS2_PLACEMENT_3D ( 'NONE', #136, #224, #49 ) ;
#81 = EDGE_LOOP ( 'NONE', ( #177, #153, #173, #44 ) ) ;
#82 = EDGE_CURVE ( 'NONE', #130, #132, #175, .T. ) ;
#83 = EDGE_LOOP ( 'NONE', ( #134, #215 ) ) ;
#84 = LOCAL_TIME ( 16, 49, 43.00000000000000000, #141 ) ;
#85 = CARTESIAN_POINT ( 'NONE',  ( 5.000000000000000000, 6.123233995736766282E-16, 6.000000000000000000 ) ) ;
#86 = DIRECTION ( 'NONE',  ( 0.000000000000000000, 0.000000000000000000, 1.000000000000000000 ) ) ;
#87 = AXIS2_PLACEMENT_3D ( 'NONE', #17, #226, #184 ) ;
#88 = APPROVAL_DATE_TIME ( #127, #193 ) ;
#89 = DIRECTION ( 'NONE',  ( 1.000000000000000000, 0.000000000000000000, 0.000000000000000000 ) ) ;
#90 = APPROVAL_STATUS ( 'not_yet_approved' ) ;
#91 = FACE_OUTER_BOUND ( 'NONE', #4, .T. ) ;
#92 = PLANE ( 'NONE',  #214 ) ;
#93 = PERSON_AND_ORGANIZATION ( #169, #52 ) ;
#94 = ADVANCED_BREP_SHAPE_REPRESENTATION ( 'AL-HD14-5.1x10-6 -ø¸ªðý¡øþýýð  òªºûúð 5.1x10-6', ( #65, #87 ), #171 ) ;
#95 = CC_DESIGN_PERSON_AND_ORGANIZATION_ASSIGNMENT ( #123, #149, ( #56 ) ) ;
#96 = AXIS2_PLACEMENT_3D ( 'NONE', #243, #67, #241 ) ;
#97 = ORIENTED_EDGE ( 'NONE', *, *, #199, .F. ) ;
#98 = ORIENTED_EDGE ( 'NONE', *, *, #29, .F. ) ;
#99 = ADVANCED_FACE ( 'NONE', ( #163 ), #126, .T. ) ;
#100 = ORIENTED_EDGE ( 'NONE', *, *, #170, .T. ) ;
#101 = CC_DESIGN_PERSON_AND_ORGANIZATION_ASSIGNMENT ( #168, #211, ( #43 ) ) ;
#102 = APPLICATION_CONTEXT ( 'configuration controlled 3d designs of mechanical parts and assemblies' ) ;
#103 = ORIENTED_EDGE ( 'NONE', *, *, #131, .T. ) ;
#104 = CARTESIAN_POINT ( 'NONE',  ( 0.000000000000000000, 0.000000000000000000, 0.000000000000000000 ) ) ;
#105 = CARTESIAN_POINT ( 'NONE',  ( -5.000000000000000000, 0.000000000000000000, 0.000000000000000000 ) ) ;
#106 = APPLICATION_PROTOCOL_DEFINITION ( 'international standard', 'config_control_design', 1994, #102 ) ;
#107 = FACE_BOUND ( 'NONE', #83, .T. ) ;
#108 = CIRCLE ( 'NONE', #96, 5.000000000000000000 ) ;
#109 =( NAMED_UNIT ( * ) SI_UNIT ( $, .STERADIAN. ) SOLID_ANGLE_UNIT ( ) );
#110 = CARTESIAN_POINT ( 'NONE',  ( -5.000000000000000000, 0.000000000000000000, 6.000000000000000000 ) ) ;
#111 = DIRECTION ( 'NONE',  ( 0.000000000000000000, 0.000000000000000000, 1.000000000000000000 ) ) ;
#112 = PERSON_AND_ORGANIZATION_ROLE ( 'creator' ) ;
#113 = CIRCLE ( 'NONE', #139, 5.000000000000000000 ) ;
#114 = UNCERTAINTY_MEASURE_WITH_UNIT (LENGTH_MEASURE( 1.000000000000000082E-05 ), #146, 'distance_accuracy_value', 'NONE');
#115 = EDGE_LOOP ( 'NONE', ( #200, #216, #6, #100 ) ) ;
#116 = ADVANCED_FACE ( 'NONE', ( #144, #107 ), #202, .T. ) ;
#117 = VERTEX_POINT ( 'NONE', #53 ) ;
#118 = APPROVAL ( #90, 'UNSPECIFIED' ) ;
#119 = EDGE_LOOP ( 'NONE', ( #155, #135, #7, #197 ) ) ;
#120 = DIRECTION ( 'NONE',  ( -0.000000000000000000, -0.000000000000000000, -1.000000000000000000 ) ) ;
#121 = DIRECTION ( 'NONE',  ( -1.000000000000000000, 0.000000000000000000, 0.000000000000000000 ) ) ;
#122 = CARTESIAN_POINT ( 'NONE',  ( 0.000000000000000000, 0.000000000000000000, 6.000000000000000000 ) ) ;
#123 = PERSON_AND_ORGANIZATION ( #169, #52 ) ;
#124 = DIRECTION ( 'NONE',  ( 0.000000000000000000, 0.000000000000000000, 1.000000000000000000 ) ) ;
#125 = COORDINATED_UNIVERSAL_TIME_OFFSET ( 3, 0, .AHEAD. ) ;
#126 = CYLINDRICAL_SURFACE ( 'NONE', #25, 5.000000000000000000 ) ;
#127 = DATE_AND_TIME ( #13, #23 ) ;
#128 = DIRECTION ( 'NONE',  ( -0.000000000000000000, -0.000000000000000000, -1.000000000000000000 ) ) ;
#129 = VECTOR ( 'NONE', #36, 1000.000000000000000 ) ;
#130 = VERTEX_POINT ( 'NONE', #245 ) ;
#131 = EDGE_CURVE ( 'NONE', #42, #174, #232, .T. ) ;
#132 = VERTEX_POINT ( 'NONE', #187 ) ;
#133 = CC_DESIGN_SECURITY_CLASSIFICATION ( #194, ( #43 ) ) ;
#134 = ORIENTED_EDGE ( 'NONE', *, *, #3, .F. ) ;
#135 = ORIENTED_EDGE ( 'NONE', *, *, #59, .T. ) ;
#136 = CARTESIAN_POINT ( 'NONE',  ( 0.000000000000000000, 0.000000000000000000, 6.000000000000000000 ) ) ;
#137 = CYLINDRICAL_SURFACE ( 'NONE', #207, 2.549999999999999822 ) ;
#138 = PERSON_AND_ORGANIZATION ( #169, #52 ) ;
#139 = AXIS2_PLACEMENT_3D ( 'NONE', #222, #64, #165 ) ;
#140 = DIRECTION ( 'NONE',  ( 1.000000000000000000, 0.000000000000000000, 0.000000000000000000 ) ) ;
#141 = COORDINATED_UNIVERSAL_TIME_OFFSET ( 3, 0, .AHEAD. ) ;
#142 = CARTESIAN_POINT ( 'NONE',  ( 0.000000000000000000, 0.000000000000000000, 0.000000000000000000 ) ) ;
#143 = CALENDAR_DATE ( 2024, 12, 12 ) ;
#144 = FACE_OUTER_BOUND ( 'NONE', #201, .T. ) ;
#145 = CC_DESIGN_PERSON_AND_ORGANIZATION_ASSIGNMENT ( #93, #161, ( #43 ) ) ;
#146 =( LENGTH_UNIT ( ) NAMED_UNIT ( * ) SI_UNIT ( .MILLI., .METRE. ) );
#147 = PRODUCT_RELATED_PRODUCT_CATEGORY ( 'detail', '', ( #56 ) ) ;
#148 = DIRECTION ( 'NONE',  ( -0.000000000000000000, -0.000000000000000000, -1.000000000000000000 ) ) ;
#149 = PERSON_AND_ORGANIZATION_ROLE ( 'design_owner' ) ;
#150 = DATE_AND_TIME ( #22, #205 ) ;
#151 = EDGE_LOOP ( 'NONE', ( #2, #156, #98, #61 ) ) ;
#152 = CLOSED_SHELL ( 'NONE', ( #191, #40, #116, #14, #99, #159 ) ) ;
#153 = ORIENTED_EDGE ( 'NONE', *, *, #82, .T. ) ;
#154 = VECTOR ( 'NONE', #148, 1000.000000000000000 ) ;
#155 = ORIENTED_EDGE ( 'NONE', *, *, #246, .F. ) ;
#156 = ORIENTED_EDGE ( 'NONE', *, *, #218, .T. ) ;
#157 = CC_DESIGN_APPROVAL ( #193, ( #43 ) ) ;
#158 = DIRECTION ( 'NONE',  ( -1.000000000000000000, 0.000000000000000000, 0.000000000000000000 ) ) ;
#159 = ADVANCED_FACE ( 'NONE', ( #178 ), #137, .F. ) ;
#160 = DIRECTION ( 'NONE',  ( -1.000000000000000000, 0.000000000000000000, 0.000000000000000000 ) ) ;
#161 = PERSON_AND_ORGANIZATION_ROLE ( 'creator' ) ;
#162 = CIRCLE ( 'NONE', #190, 2.549999999999999822 ) ;
#163 = FACE_OUTER_BOUND ( 'NONE', #115, .T. ) ;
#164 = PRODUCT_DEFINITION ( 'UNKNOWN', '', #43, #41 ) ;
#165 = DIRECTION ( 'NONE',  ( 1.000000000000000000, 0.000000000000000000, 0.000000000000000000 ) ) ;
#166 = APPROVAL_ROLE ( '' ) ;
#167 = CARTESIAN_POINT ( 'NONE',  ( 2.549999999999999822, 3.122849337825750419E-16, 0.000000000000000000 ) ) ;
#168 = PERSON_AND_ORGANIZATION ( #169, #52 ) ;
#169 = PERSON ( 'UNSPECIFIED', 'UNSPECIFIED', 'UNSPECIFIED', ('UNSPECIFIED'), ('UNSPECIFIED'), ('UNSPECIFIED') ) ;
#170 = EDGE_CURVE ( 'NONE', #8, #117, #108, .T. ) ;
#171 =( GEOMETRIC_REPRESENTATION_CONTEXT ( 3 ) GLOBAL_UNCERTAINTY_ASSIGNED_CONTEXT ( ( #114 ) ) GLOBAL_UNIT_ASSIGNED_CONTEXT ( ( #146, #242, #109 ) ) REPRESENTATION_CONTEXT ( 'NONE', 'WORKASPACE' ) );
#172 = SHAPE_DEFINITION_REPRESENTATION ( #48, #94 ) ;
#173 = ORIENTED_EDGE ( 'NONE', *, *, #234, .T. ) ;
#174 = VERTEX_POINT ( 'NONE', #208 ) ;
#175 = CIRCLE ( 'NONE', #68, 2.549999999999999822 ) ;
#176 = DIRECTION ( 'NONE',  ( 0.000000000000000000, 0.000000000000000000, 1.000000000000000000 ) ) ;
#177 = ORIENTED_EDGE ( 'NONE', *, *, #218, .F. ) ;
#178 = FACE_OUTER_BOUND ( 'NONE', #81, .T. ) ;
#179 = APPROVAL_PERSON_ORGANIZATION ( #57, #193, #1 ) ;
#180 = FACE_OUTER_BOUND ( 'NONE', #119, .T. ) ;
#181 = CC_DESIGN_APPROVAL ( #79, ( #194 ) ) ;
#182 = CALENDAR_DATE ( 2024, 12, 12 ) ;
#183 = DIRECTION ( 'NONE',  ( 1.000000000000000000, 0.000000000000000000, -0.000000000000000000 ) ) ;
#184 = DIRECTION ( 'NONE',  ( 1.000000000000000000, 0.000000000000000000, 0.000000000000000000 ) ) ;
#185 = DIRECTION ( 'NONE',  ( -0.000000000000000000, -0.000000000000000000, -1.000000000000000000 ) ) ;
#186 = CARTESIAN_POINT ( 'NONE',  ( 0.000000000000000000, 0.000000000000000000, 6.000000000000000000 ) ) ;
#187 = CARTESIAN_POINT ( 'NONE',  ( -2.549999999999999822, 0.000000000000000000, 6.000000000000000000 ) ) ;
#188 = COORDINATED_UNIVERSAL_TIME_OFFSET ( 3, 0, .AHEAD. ) ;
#189 = DATE_TIME_ROLE ( 'creation_date' ) ;
#190 = AXIS2_PLACEMENT_3D ( 'NONE', #235, #176, #62 ) ;
#191 = ADVANCED_FACE ( 'NONE', ( #210 ), #11, .F. ) ;
#192 = APPROVAL_PERSON_ORGANIZATION ( #138, #118, #166 ) ;
#193 = APPROVAL ( #38, 'UNSPECIFIED' ) ;
#194 = SECURITY_CLASSIFICATION ( '', '', #244 ) ;
#195 = VERTEX_POINT ( 'NONE', #66 ) ;
#196 = AXIS2_PLACEMENT_3D ( 'NONE', #186, #73, #32 ) ;
#197 = ORIENTED_EDGE ( 'NONE', *, *, #213, .F. ) ;
#198 = AXIS2_PLACEMENT_3D ( 'NONE', #204, #225, #183 ) ;
#199 = EDGE_CURVE ( 'NONE', #117, #8, #12, .T. ) ;
#200 = ORIENTED_EDGE ( 'NONE', *, *, #59, .F. ) ;
#201 = EDGE_LOOP ( 'NONE', ( #26, #236 ) ) ;
#202 = PLANE ( 'NONE',  #198 ) ;
#203 = DIRECTION ( 'NONE',  ( 1.000000000000000000, 0.000000000000000000, 0.000000000000000000 ) ) ;
#204 = CARTESIAN_POINT ( 'NONE',  ( 0.000000000000000000, 0.000000000000000000, 6.000000000000000000 ) ) ;
#205 = LOCAL_TIME ( 16, 49, 43.00000000000000000, #231 ) ;
#206 = PERSON_AND_ORGANIZATION ( #169, #52 ) ;
#207 = AXIS2_PLACEMENT_3D ( 'NONE', #19, #221, #121 ) ;
#208 = CARTESIAN_POINT ( 'NONE',  ( -2.549999999999999822, 0.000000000000000000, 0.000000000000000000 ) ) ;
#209 = APPROVAL_DATE_TIME ( #35, #118 ) ;
#210 = FACE_OUTER_BOUND ( 'NONE', #151, .T. ) ;
#211 = PERSON_AND_ORGANIZATION_ROLE ( 'design_supplier' ) ;
#212 = APPROVAL_STATUS ( 'not_yet_approved' ) ;
#213 = EDGE_CURVE ( 'NONE', #240, #8, #33, .T. ) ;
#214 = AXIS2_PLACEMENT_3D ( 'NONE', #142, #111, #72 ) ;
#215 = ORIENTED_EDGE ( 'NONE', *, *, #82, .F. ) ;
#216 = ORIENTED_EDGE ( 'NONE', *, *, #77, .F. ) ;
#217 = VECTOR ( 'NONE', #128, 1000.000000000000000 ) ;
#218 = EDGE_CURVE ( 'NONE', #130, #42, #16, .T. ) ;
#219 = CC_DESIGN_DATE_AND_TIME_ASSIGNMENT ( #223, #37, ( #194 ) ) ;
#220 = CARTESIAN_POINT ( 'NONE',  ( 0.000000000000000000, 0.000000000000000000, 0.000000000000000000 ) ) ;
#221 = DIRECTION ( 'NONE',  ( -0.000000000000000000, -0.000000000000000000, -1.000000000000000000 ) ) ;
#222 = CARTESIAN_POINT ( 'NONE',  ( 0.000000000000000000, 0.000000000000000000, 6.000000000000000000 ) ) ;
#223 = DATE_AND_TIME ( #143, #84 ) ;
#224 = DIRECTION ( 'NONE',  ( -0.000000000000000000, -0.000000000000000000, -1.000000000000000000 ) ) ;
#225 = DIRECTION ( 'NONE',  ( 0.000000000000000000, 0.000000000000000000, 1.000000000000000000 ) ) ;
#226 = DIRECTION ( 'NONE',  ( 0.000000000000000000, 0.000000000000000000, 1.000000000000000000 ) ) ;
#227 = LINE ( 'NONE', #55, #217 ) ;
#228 = PERSON_AND_ORGANIZATION ( #169, #52 ) ;
#229 = APPROVAL_PERSON_ORGANIZATION ( #75, #79, #21 ) ;
#230 = LOCAL_TIME ( 16, 49, 43.00000000000000000, #71 ) ;
#231 = COORDINATED_UNIVERSAL_TIME_OFFSET ( 3, 0, .AHEAD. ) ;
#232 = CIRCLE ( 'NONE', #233, 2.549999999999999822 ) ;
#233 = AXIS2_PLACEMENT_3D ( 'NONE', #104, #50, #89 ) ;
#234 = EDGE_CURVE ( 'NONE', #132, #174, #227, .T. ) ;
#235 = CARTESIAN_POINT ( 'NONE',  ( 0.000000000000000000, 0.000000000000000000, 6.000000000000000000 ) ) ;
#236 = ORIENTED_EDGE ( 'NONE', *, *, #246, .T. ) ;
#237 = AXIS2_PLACEMENT_3D ( 'NONE', #28, #124, #140 ) ;
#238 = CC_DESIGN_DATE_AND_TIME_ASSIGNMENT ( #54, #189, ( #164 ) ) ;
#239 = ORIENTED_EDGE ( 'NONE', *, *, #29, .T. ) ;
#240 = VERTEX_POINT ( 'NONE', #249 ) ;
#241 = DIRECTION ( 'NONE',  ( 1.000000000000000000, 0.000000000000000000, 0.000000000000000000 ) ) ;
#242 =( NAMED_UNIT ( * ) PLANE_ANGLE_UNIT ( ) SI_UNIT ( $, .RADIAN. ) );
#243 = CARTESIAN_POINT ( 'NONE',  ( 0.000000000000000000, 0.000000000000000000, 0.000000000000000000 ) ) ;
#244 = SECURITY_CLASSIFICATION_LEVEL ( 'unclassified' ) ;
#245 = CARTESIAN_POINT ( 'NONE',  ( 2.549999999999999822, 3.122849337825750419E-16, 6.000000000000000000 ) ) ;
#246 = EDGE_CURVE ( 'NONE', #195, #240, #58, .T. ) ;
#247 = CARTESIAN_POINT ( 'NONE',  ( 0.000000000000000000, 0.000000000000000000, 6.000000000000000000 ) ) ;
#248 = APPLICATION_PROTOCOL_DEFINITION ( 'international standard', 'config_control_design', 1994, #63 ) ;
#249 = CARTESIAN_POINT ( 'NONE',  ( -5.000000000000000000, 0.000000000000000000, 6.000000000000000000 ) ) ;
ENDSEC;
END-ISO-10303-21;
